Almost Beautiful
Words And Music By Ricky Ross

          
Em 022000
Am X02210
D X00232

Intro x2
Asus
B---0-------------------
G------2p0-------------
D------------2p0-2-----

Em
There is something almost right
                                           Am
There is something that really talks to me
D
There is something wrong but almost good
                                            Em      Intro Riff
There is something that nearly terrifies

There is something more we can talk about
Maybe there is something we can change
If there are ways to go then let us
We don't want to live this always

Em          Am
Cry your heart
D
For something good you'd do it for
Em             Am
You try so hard
D                                  Em  Intro Riff
For something, almost beautiful

Far and distant from what you see is what is there
And that love there is something wonderful,wonderful
There's nowhere to go but here now
And nothing To find that isn't beautiful

And all that's lost you count as nought
To what is there so free so free
We don't wanna live this
This way are way no way no way no way I said

Cry your heart
For something good you'd do it for
You try so hard
For something almost beautiful

SOLO
e----------------------------------------------------------------------
B----------------------------------------------------------------------
G----------------------------------------------------------7--7-------
D--9---7-h-9-9--------7-----7-h-9--7-h-9--7-h-9------------9------
A---------------7-h-9-------------------------------------------------
E----------------------------------------------------------------------

Cry your heart
For something good you'd do it for
You try so hard
For something almost beautiful.