Church
Words & Music Ricky Ross

C

x032010

D

xx0232
Em 022000
B x24442
G
320033
G#m 466444
Bb x13331

 

 

 

 

 

Intro

E-----------------------3p2------------0--------
B-----------------------3----3------3-----3-----
G-------------------------------2h4-------------
D-------------0----------------------------------
A-0-2-3-3-2-------------------------------------
E-------------------------------------------------

Verse - C    D     C   D  ..........

Pre chorus - Em  B  G  G#m

Chorus - C  G  Bb   C G Bb.......

Solo

E----------------------------------------------------------------------------------------
B-15-(long note)-------------------------------------------------------13--12--10s12--
G---------------------------10------------10------------10-----------------------------
D--------------------------------12--10-------12--10-------12-------------------------
A----------------------------------------------------------------------------------------
E----------------------------------------------------------------------------------------