Cresswell Street
Words And Music By Ricky Ross & Lorraine McIntosh

G 320003
C x32013
D xx0232
C5 x30033
G/B x20033
A7sus4 x02233

Cello fill just before the chorus
D--------0-
A-0-2-3----

This is how I've been playing it
Verse

G                                   C
------------3---------------------3------
---0----------------------1--------------
----------------0---------------------0--
--------0---------------------2----------
--------------------------3---------------
--3---------------------------------------

Chorus
(Cello Fill)          D                  C5             G/B           A7sus4
-----------------2----------------------1-----------1-----------1--
---------------------------3----------------------------------------
-----------------------2-----2--------0-----------0----------2-----  then back to G  C
------------0----0-----------------0-----------0----------2--------
---0-2-3-----------------------3-----------2----------0------------
---------------------------------------------------------------------


G  C  G   C.........continue simile 
You take comfort from your window
You take refuge in the sky
You can't bare to see the ocean
Falling, falling

     D
If your
C5    G/B   A7sus4   G    C    G   C  
Over there i'm over here
      D 
If your
C5    G/B   A7sus4   G    C    G   C  
Over there i'm over here

Met you on the street on tuesday
stood like statues in the snow
pushed your head back it was melting in your eyes
there was a tear
I don't know

If your
over there i'm over here
looking
If your
over there i'm here
across the street
If your
over there i'm over here