Dignity
Words And Music By Ricky Ross

Tabbed By : Martin Carlin

Tuning: Standard



Verse
=====

G|---------------------------------------------------------------------------|
D|---------------------------------------------------------------------------|
A|----------------1~--1--3~--3-----------------------------------------------|
E|--1~--3--5~--5---------------(1~)------------------------------------------|x6

The F in brackets is the first note of the next round of the verse.

Break
=====
G|---------------------------------------------------------------------------|
D|--------3------------------------------------------------------------------|
A|-----1h---3----------------------------------------------------------------|
E|--1~---------1~------------------------------------------------------------|x4

Pre-Chorus
==========
G|---------------------------------------------------------------------------|
D|---------------------------------------------------------------------------|
A|-1-1~--3-3~--0-0~--3-5~--5-3-1-1~--3-3~--0-1~-X-0~---X-3~-X----------------|
E|------------------------------------------------------------3~-X-----------|

                                           Ship. Called. Dig. Nuh-TEE!
 
Main Riff
=========

G|---------------------------------------------------------------------------|
D|---------------------------------------------------------------------------|
A|-----------------0---------------------------------------------------------|
E|--1-1-1-1-1-1-3------------------------------------------------------------|

Play this until the Pre-Chorus part comes back in again.


Pre-Chorus

Main Riff Till End

End on F.